..::AkGençLik Yenişehir ::..
Yakında Sizlerleyizzzz
..::AkGençLik Yenişehir ::..

..::Mersin Yenişehir AkGençLik ::..
 
AnasayfaAnasayfa  DUYURULARDUYURULAR  Kayıt OlKayıt Ol  Giriş yap  

Paylaş | 
 

 Yeter ki Haluk Levent

Önceki başlık Sonraki başlık Aşağa gitmek 
YazarMesaj
qiTarX Ferit
Site Sahibi
Site Sahibi
avatar

Mesaj Sayısı : 129
Kayıt tarihi : 29/01/09
Yaş : 28
Nerden : mersin

MesajKonu: Yeter ki Haluk Levent   Salı Mayıs 19, 2009 8:52 am

E-----------------------------------------------------
B-----------------------------------------------------
G-----------------------------------------------------
D--7-5---7-5---7-5---7-5--8-8-7-----5-----------------
A--------------------------------8-----8---6---5------
E-----------------------------------------------------

E-----------------------------------------------------
B-----------------------------------------------------
G-----------------------------------------------------
D--7-5---7-5---7-5---7-5--8-8-7-----5--7----5---------
A--------------------------------8-------8------------
E-----------------------------------------------------

Am ............................... G ............................... Am
Ellerim, gözlerim kelepçelerde sevda çöllerinde

Geçiyor aylarim, yillarim, gecelerim
G ............................... Am
Sevda zindanlarinda

G ............................... Am ............................... G ... Am
A ( Yeter ki sen sev beni, yeter ki inan bana ) 2

Am ............................... G ............................... Am
Varligin dilimde bir yudum su sevda çöllerinde
............................... G ............................... Am
Hayalin, serabin yeterdi bana sevda zindanlarinda

TEKRAR A (2
Sayfa başına dön Aşağa gitmek
http://mersininazizleri.forummum.com
 
Yeter ki Haluk Levent
Önceki başlık Sonraki başlık Sayfa başına dön 
1 sayfadaki 1 sayfası
 Similar topics
-
» Haluk Levent-Ben bu gece ölmezsem

Bu forumun müsaadesi var:Bu forumdaki mesajlara cevap veremezsiniz
..::AkGençLik Yenişehir ::.. :: Akorlar - Tablar-
Buraya geçin: