..::AkGençLik Yenişehir ::..
Yakında Sizlerleyizzzz
..::AkGençLik Yenişehir ::..

..::Mersin Yenişehir AkGençLik ::..
 
AnasayfaAnasayfa  DUYURULARDUYURULAR  Kayıt OlKayıt Ol  Giriş yap  

Paylaş | 
 

 Ferhat Göçer - Cennet TAB

Önceki başlık Sonraki başlık Aşağa gitmek 
YazarMesaj
qiTarX Ferit
Site Sahibi
Site Sahibi
avatar

Mesaj Sayısı : 129
Kayıt tarihi : 29/01/09
Yaş : 28
Nerden : mersin

MesajKonu: Ferhat Göçer - Cennet TAB   Cuma Ekim 30, 2009 5:23 pm

--------------------------------------------------------E
--------------------------------------------------------A
--------------------------------------------------------D
-4---------7-5-7-9-11-9-9----------7-5-7----------------G
---5-7-8-5----------------8-10-7-5-------5-7-8-7-7------B
--------------------------------------------------------E

--------------------------------------------------------E
--------------------------------------------------------A
--------------------------------------------------------D
-4---------7-5-7-9-11-9-9----------7-5-4-5-4-5-7-4------G
---5-7-8-5----------------8-8-7-5-----------------------B
--------------------------------------------------------E
Sayfa başına dön Aşağa gitmek
http://mersininazizleri.forummum.com
 
Ferhat Göçer - Cennet TAB
Önceki başlık Sonraki başlık Sayfa başına dön 
1 sayfadaki 1 sayfası

Bu forumun müsaadesi var:Bu forumdaki mesajlara cevap veremezsiniz
..::AkGençLik Yenişehir ::.. :: Akorlar - Tablar-
Buraya geçin: